ISO-10303-21;
HEADER;
FILE_DESCRIPTION (( 'STEP AP214' ),
    '1' );
FILE_NAME ('85Èí¹Ü³ÄÌ×T1-6.STEP',
    '2019-08-01T08:22:36',
    ( '' ),
    ( '' ),
    'SwSTEP 2.0',
    'SolidWorks 2014',
    '' );
FILE_SCHEMA (( 'AUTOMOTIVE_DESIGN' ));
ENDSEC;

DATA;
#1 = PRESENTATION_STYLE_ASSIGNMENT (( #91 ) ) ;
#2 = FACE_OUTER_BOUND ( 'NONE', #41, .T. ) ;
#3 = DIRECTION ( 'NONE',  ( -0.0000000000000000000, -0.0000000000000000000, -1.000000000000000000 ) ) ;
#4 = CARTESIAN_POINT ( 'NONE',  ( -2.200000000000000200, 0.0000000000000000000, 0.2500000000000000000 ) ) ;
#5 = CARTESIAN_POINT ( 'NONE',  ( 0.0000000000000000000, 0.0000000000000000000, 0.0000000000000000000 ) ) ;
#6 = EDGE_CURVE ( 'NONE', #46, #46, #71, .T. ) ;
#7 = CARTESIAN_POINT ( 'NONE',  ( 0.0000000000000000000, 0.0000000000000000000, 0.2500000000000000000 ) ) ;
#8 = VERTEX_POINT ( 'NONE', #89 ) ;
#9 = DIRECTION ( 'NONE',  ( 1.000000000000000000, 0.0000000000000000000, 0.0000000000000000000 ) ) ;
#10 = APPLICATION_CONTEXT ( 'automotive_design' ) ;
#11 = FACE_OUTER_BOUND ( 'NONE', #94, .T. ) ;
#12 = AXIS2_PLACEMENT_3D ( 'NONE', #37, #17, #19 ) ;
#13 = FILL_AREA_STYLE ('',( #199 ) ) ;
#14 = AXIS2_PLACEMENT_3D ( 'NONE', #200, #201, #72 ) ;
#15 = ORIENTED_EDGE ( 'NONE', *, *, #109, .T. ) ;
#16 = EDGE_LOOP ( 'NONE', ( #157 ) ) ;
#17 = DIRECTION ( 'NONE',  ( 0.0000000000000000000, 0.0000000000000000000, -1.000000000000000000 ) ) ;
#18 = VERTEX_POINT ( 'NONE', #122 ) ;
#19 = DIRECTION ( 'NONE',  ( -1.000000000000000000, 0.0000000000000000000, 0.0000000000000000000 ) ) ;
#20 = PRESENTATION_LAYER_ASSIGNMENT (  '', '', ( #66 ) ) ;
#21 = DIRECTION ( 'NONE',  ( -1.000000000000000000, 0.0000000000000000000, 0.0000000000000000000 ) ) ;
#22 = PRESENTATION_STYLE_ASSIGNMENT (( #55 ) ) ;
#23 = DIRECTION ( 'NONE',  ( 0.0000000000000000000, 0.0000000000000000000, -1.000000000000000000 ) ) ;
#24 =( LENGTH_UNIT ( ) NAMED_UNIT ( * ) SI_UNIT ( .MILLI., .METRE. ) );
#25 = DIRECTION ( 'NONE',  ( 0.0000000000000000000, 0.0000000000000000000, -1.000000000000000000 ) ) ;
#26 = APPLICATION_PROTOCOL_DEFINITION ( 'draft international standard', 'automotive_design', 1998, #10 ) ;
#27 = EDGE_LOOP ( 'NONE', ( #190 ) ) ;
#28 = UNCERTAINTY_MEASURE_WITH_UNIT (LENGTH_MEASURE( 1.000000000000000100E-005 ), #24, 'distance_accuracy_value', 'NONE');
#29 = CIRCLE ( 'NONE', #191, 1.725000000000000100 ) ;
#30 = FACE_OUTER_BOUND ( 'NONE', #16, .T. ) ;
#31 = ADVANCED_FACE ( 'NONE', ( #208, #159 ), #115, .F. ) ;
#32 = AXIS2_PLACEMENT_3D ( 'NONE', #67, #175, #85 ) ;
#33 = ORIENTED_EDGE ( 'NONE', *, *, #156, .T. ) ;
#34 = PRODUCT_RELATED_PRODUCT_CATEGORY ( 'part', '', ( #148 ) ) ;
#35 = AXIS2_PLACEMENT_3D ( 'NONE', #183, #136, #98 ) ;
#36 = CIRCLE ( 'NONE', #35, 2.899999999999999900 ) ;
#37 = CARTESIAN_POINT ( 'NONE',  ( 0.0000000000000000000, 0.0000000000000000000, 0.4500000000000007300 ) ) ;
#38 = CARTESIAN_POINT ( 'NONE',  ( 0.0000000000000000000, 0.0000000000000000000, 9.549999999999998900 ) ) ;
#39 = FACE_OUTER_BOUND ( 'NONE', #203, .T. ) ;
#40 = DIRECTION ( 'NONE',  ( -1.000000000000000000, 0.0000000000000000000, 0.0000000000000000000 ) ) ;
#41 = EDGE_LOOP ( 'NONE', ( #15 ) ) ;
#42 = AXIS2_PLACEMENT_3D ( 'NONE', #120, #45, #99 ) ;
#43 = CARTESIAN_POINT ( 'NONE',  ( 0.0000000000000000000, 0.0000000000000000000, 0.2500000000000000000 ) ) ;
#44 = CARTESIAN_POINT ( 'NONE',  ( -2.899999999999999900, 0.0000000000000000000, 0.0000000000000000000 ) ) ;
#45 = DIRECTION ( 'NONE',  ( -0.0000000000000000000, -0.0000000000000000000, -1.000000000000000000 ) ) ;
#46 = VERTEX_POINT ( 'NONE', #179 ) ;
#47 = PRODUCT_CONTEXT ( 'NONE', #205, 'mechanical' ) ;
#48 = VERTEX_POINT ( 'NONE', #4 ) ;
#49 = ORIENTED_EDGE ( 'NONE', *, *, #134, .T. ) ;
#50 = AXIS2_PLACEMENT_3D ( 'NONE', #38, #65, #117 ) ;
#51 = COLOUR_RGB ( '',0.8274509803921568100, 0.6666666666666666300, 0.1294117647058823400 ) ;
#52 = AXIS2_PLACEMENT_3D ( 'NONE', #97, #3, #195 ) ;
#53 = VERTEX_POINT ( 'NONE', #44 ) ;
#54 = FACE_OUTER_BOUND ( 'NONE', #181, .T. ) ;
#55 = SURFACE_STYLE_USAGE ( .BOTH. , #73 ) ;
#56 = CARTESIAN_POINT ( 'NONE',  ( -1.725000000000000100, 0.0000000000000000000, 9.964578098794424600 ) ) ;
#57 = MECHANICAL_DESIGN_GEOMETRIC_PRESENTATION_REPRESENTATION (  '', ( #66 ), #185 ) ;
#58 = FACE_OUTER_BOUND ( 'NONE', #153, .T. ) ;
#59 =( NAMED_UNIT ( * ) SI_UNIT ( $, .STERADIAN. ) SOLID_ANGLE_UNIT ( ) );
#60 = FACE_OUTER_BOUND ( 'NONE', #77, .T. ) ;
#61 = ADVANCED_FACE ( 'NONE', ( #54, #30 ), #105, .T. ) ;
#62 = FACE_BOUND ( 'NONE', #177, .T. ) ;
#63 = ADVANCED_FACE ( 'NONE', ( #110, #58 ), #144, .F. ) ;
#64 = EDGE_LOOP ( 'NONE', ( #49 ) ) ;
#65 = DIRECTION ( 'NONE',  ( 0.0000000000000000000, 0.0000000000000000000, 1.000000000000000000 ) ) ;
#66 = STYLED_ITEM ( 'NONE', ( #22 ), #154 ) ;
#67 = CARTESIAN_POINT ( 'NONE',  ( 0.0000000000000000000, 0.0000000000000000000, 0.2500000000000000000 ) ) ;
#68 = ORIENTED_EDGE ( 'NONE', *, *, #212, .F. ) ;
#69 = DIRECTION ( 'NONE',  ( -1.000000000000000000, 0.0000000000000000000, -0.0000000000000000000 ) ) ;
#70 = DIRECTION ( 'NONE',  ( 0.0000000000000000000, 0.0000000000000000000, -1.000000000000000000 ) ) ;
#71 = CIRCLE ( 'NONE', #95, 2.000000000000000000 ) ;
#72 = DIRECTION ( 'NONE',  ( 1.000000000000000000, 0.0000000000000000000, 0.0000000000000000000 ) ) ;
#73 = SURFACE_SIDE_STYLE ('',( #170 ) ) ;
#74 =( NAMED_UNIT ( * ) PLANE_ANGLE_UNIT ( ) SI_UNIT ( $, .RADIAN. ) );
#75 = CARTESIAN_POINT ( 'NONE',  ( 0.0000000000000000000, 0.0000000000000000000, 0.0000000000000000000 ) ) ;
#76 = CYLINDRICAL_SURFACE ( 'NONE', #42, 2.000000000000000000 ) ;
#77 = EDGE_LOOP ( 'NONE', ( #33 ) ) ;
#78 =( NAMED_UNIT ( * ) SI_UNIT ( $, .STERADIAN. ) SOLID_ANGLE_UNIT ( ) );
#79 = ORIENTED_EDGE ( 'NONE', *, *, #134, .F. ) ;
#80 = CIRCLE ( 'NONE', #143, 2.899999999999999900 ) ;
#81 = AXIS2_PLACEMENT_3D ( 'NONE', #7, #23, #21 ) ;
#82 = VERTEX_POINT ( 'NONE', #178 ) ;
#83 = ORIENTED_EDGE ( 'NONE', *, *, #212, .T. ) ;
#84 = CARTESIAN_POINT ( 'NONE',  ( 0.0000000000000000000, 0.0000000000000000000, 9.964578098794424600 ) ) ;
#85 = DIRECTION ( 'NONE',  ( -1.000000000000000000, 0.0000000000000000000, 0.0000000000000000000 ) ) ;
#86 = SHAPE_DEFINITION_REPRESENTATION ( #184, #166 ) ;
#87 = ORIENTED_EDGE ( 'NONE', *, *, #156, .F. ) ;
#88 = DIRECTION ( 'NONE',  ( -0.0000000000000000000, -0.0000000000000000000, 1.000000000000000000 ) ) ;
#89 = CARTESIAN_POINT ( 'NONE',  ( 1.725000000000000100, 0.0000000000000000000, 0.2000000000000005100 ) ) ;
#90 = DIRECTION ( 'NONE',  ( -1.000000000000000000, 0.0000000000000000000, 0.0000000000000000000 ) ) ;
#91 = SURFACE_STYLE_USAGE ( .BOTH. , #140 ) ;
#92 = CIRCLE ( 'NONE', #112, 2.000000000000000000 ) ;
#93 = EDGE_CURVE ( 'NONE', #210, #210, #29, .T. ) ;
#94 = EDGE_LOOP ( 'NONE', ( #79 ) ) ;
#95 = AXIS2_PLACEMENT_3D ( 'NONE', #113, #132, #160 ) ;
#96 = AXIS2_PLACEMENT_3D ( 'NONE', #186, #204, #9 ) ;
#97 = CARTESIAN_POINT ( 'NONE',  ( 0.0000000000000000000, 0.0000000000000000000, 10.00000000000000000 ) ) ;
#98 = DIRECTION ( 'NONE',  ( -1.000000000000000000, 0.0000000000000000000, 0.0000000000000000000 ) ) ;
#99 = DIRECTION ( 'NONE',  ( -1.000000000000000000, 0.0000000000000000000, 0.0000000000000000000 ) ) ;
#100 = ORIENTED_EDGE ( 'NONE', *, *, #93, .T. ) ;
#101 = EDGE_CURVE ( 'NONE', #48, #48, #133, .T. ) ;
#102 = CARTESIAN_POINT ( 'NONE',  ( 0.0000000000000000000, 0.0000000000000000000, 0.0000000000000000000 ) ) ;
#103 = EDGE_LOOP ( 'NONE', ( #197 ) ) ;
#104 = DIRECTION ( 'NONE',  ( 1.000000000000000000, 0.0000000000000000000, 0.0000000000000000000 ) ) ;
#105 = TOROIDAL_SURFACE ( 'NONE', #50, 1.550000000000000300, 0.4500000000000000100 ) ;
#106 = APPLICATION_PROTOCOL_DEFINITION ( 'draft international standard', 'automotive_design', 1998, #205 ) ;
#107 = CIRCLE ( 'NONE', #14, 1.725000000000000100 ) ;
#108 = ADVANCED_FACE ( 'NONE', ( #155, #187 ), #193, .F. ) ;
#109 = EDGE_CURVE ( 'NONE', #18, #18, #92, .T. ) ;
#110 = FACE_OUTER_BOUND ( 'NONE', #211, .T. ) ;
#111 = STYLED_ITEM ( 'NONE', ( #1 ), #166 ) ;
#112 = AXIS2_PLACEMENT_3D ( 'NONE', #168, #88, #90 ) ;
#113 = CARTESIAN_POINT ( 'NONE',  ( 0.0000000000000000000, 0.0000000000000000000, 9.549999999999998900 ) ) ;
#114 = DIRECTION ( 'NONE',  ( -1.000000000000000000, 0.0000000000000000000, 0.0000000000000000000 ) ) ;
#115 = TOROIDAL_SURFACE ( 'NONE', #12, 2.200000000000000200, 0.2000000000000000100 ) ;
#116 = CARTESIAN_POINT ( 'NONE',  ( 0.0000000000000000000, 0.0000000000000000000, 0.2500000000000000000 ) ) ;
#117 = DIRECTION ( 'NONE',  ( 1.000000000000000000, 0.0000000000000000000, 0.0000000000000000000 ) ) ;
#118 = PRESENTATION_LAYER_ASSIGNMENT (  '', '', ( #111 ) ) ;
#119 = ORIENTED_EDGE ( 'NONE', *, *, #124, .T. ) ;
#120 = CARTESIAN_POINT ( 'NONE',  ( 0.0000000000000000000, 0.0000000000000000000, 10.00000000000000000 ) ) ;
#121 =( NAMED_UNIT ( * ) PLANE_ANGLE_UNIT ( ) SI_UNIT ( $, .RADIAN. ) );
#122 = CARTESIAN_POINT ( 'NONE',  ( -2.000000000000000000, 0.0000000000000000000, 0.4500000000000007300 ) ) ;
#123 = EDGE_LOOP ( 'NONE', ( #87 ) ) ;
#124 = EDGE_CURVE ( 'NONE', #8, #8, #107, .T. ) ;
#125 = ORIENTED_EDGE ( 'NONE', *, *, #6, .T. ) ;
#126 = DIRECTION ( 'NONE',  ( 0.0000000000000000000, 0.0000000000000000000, 1.000000000000000000 ) ) ;
#127 = AXIS2_PLACEMENT_3D ( 'NONE', #5, #126, #104 ) ;
#128 = FACE_OUTER_BOUND ( 'NONE', #64, .T. ) ;
#129 = ADVANCED_FACE ( 'NONE', ( #60, #11 ), #162, .T. ) ;
#130 = ORIENTED_EDGE ( 'NONE', *, *, #101, .T. ) ;
#131 = AXIS2_PLACEMENT_3D ( 'NONE', #102, #182, #151 ) ;
#132 = DIRECTION ( 'NONE',  ( -0.0000000000000000000, -0.0000000000000000000, -1.000000000000000000 ) ) ;
#133 = CIRCLE ( 'NONE', #32, 2.200000000000000200 ) ;
#134 = EDGE_CURVE ( 'NONE', #53, #53, #36, .T. ) ;
#135 = FILL_AREA_STYLE_COLOUR ( '', #51 ) ;
#136 = DIRECTION ( 'NONE',  ( 0.0000000000000000000, 0.0000000000000000000, -1.000000000000000000 ) ) ;
#137 = PLANE ( 'NONE',  #131 ) ;
#138 = FACE_OUTER_BOUND ( 'NONE', #149, .T. ) ;
#139 =( NAMED_UNIT ( * ) SI_UNIT ( $, .STERADIAN. ) SOLID_ANGLE_UNIT ( ) );
#140 = SURFACE_SIDE_STYLE ('',( #145 ) ) ;
#141 = TOROIDAL_SURFACE ( 'NONE', #96, 1.925000000000000300, 0.2000000000000000100 ) ;
#142 = ORIENTED_EDGE ( 'NONE', *, *, #124, .F. ) ;
#143 = AXIS2_PLACEMENT_3D ( 'NONE', #43, #25, #40 ) ;
#144 = CYLINDRICAL_SURFACE ( 'NONE', #52, 1.725000000000000100 ) ;
#145 = SURFACE_STYLE_FILL_AREA ( #13 ) ;
#146 = PRODUCT_DEFINITION_FORMATION_WITH_SPECIFIED_SOURCE ( 'ÈÎºÎ', '', #148, .NOT_KNOWN. ) ;
#147 = EDGE_LOOP ( 'NONE', ( #130 ) ) ;
#148 = PRODUCT ( '85Èí¹Ü³ÄÌ×T1-6', '85Èí¹Ü³ÄÌ×T1-6', '', ( #47 ) ) ;
#149 = EDGE_LOOP ( 'NONE', ( #142 ) ) ;
#150 =( GEOMETRIC_REPRESENTATION_CONTEXT ( 3 ) GLOBAL_UNCERTAINTY_ASSIGNED_CONTEXT ( ( #198 ) ) GLOBAL_UNIT_ASSIGNED_CONTEXT ( ( #167, #74, #78 ) ) REPRESENTATION_CONTEXT ( 'NONE', 'WORKASPACE' ) );
#151 = DIRECTION ( 'NONE',  ( 1.000000000000000000, 0.0000000000000000000, -0.0000000000000000000 ) ) ;
#152 = FACE_OUTER_BOUND ( 'NONE', #192, .T. ) ;
#153 = EDGE_LOOP ( 'NONE', ( #100 ) ) ;
#154 = MANIFOLD_SOLID_BREP ( 'Ô²½Ç4', #174 ) ;
#155 = FACE_BOUND ( 'NONE', #147, .T. ) ;
#156 = EDGE_CURVE ( 'NONE', #82, #82, #80, .T. ) ;
#157 = ORIENTED_EDGE ( 'NONE', *, *, #6, .F. ) ;
#158 = PRODUCT_DEFINITION ( 'Î´Öª', '', #146, #176 ) ;
#159 = FACE_OUTER_BOUND ( 'NONE', #103, .T. ) ;
#160 = DIRECTION ( 'NONE',  ( 1.000000000000000000, 0.0000000000000000000, 0.0000000000000000000 ) ) ;
#161 = VERTEX_POINT ( 'NONE', #165 ) ;
#162 = CYLINDRICAL_SURFACE ( 'NONE', #81, 2.899999999999999900 ) ;
#163 = DIRECTION ( 'NONE',  ( 0.0000000000000000000, 0.0000000000000000000, 1.000000000000000000 ) ) ;
#164 = DIRECTION ( 'NONE',  ( 1.000000000000000000, 0.0000000000000000000, 0.0000000000000000000 ) ) ;
#165 = CARTESIAN_POINT ( 'NONE',  ( 1.925000000000000300, 0.0000000000000000000, 0.0000000000000000000 ) ) ;
#166 = ADVANCED_BREP_SHAPE_REPRESENTATION ( '85Èí¹Ü³ÄÌ×T1-6', ( #154, #127 ), #150 ) ;
#167 =( LENGTH_UNIT ( ) NAMED_UNIT ( * ) SI_UNIT ( .MILLI., .METRE. ) );
#168 = CARTESIAN_POINT ( 'NONE',  ( 0.0000000000000000000, 0.0000000000000000000, 0.4500000000000007300 ) ) ;
#169 = COLOUR_RGB ( '',0.8274509803921568100, 0.6666666666666666300, 0.1294117647058823400 ) ;
#170 = SURFACE_STYLE_FILL_AREA ( #196 ) ;
#171 = ADVANCED_FACE ( 'NONE', ( #2, #152 ), #76, .T. ) ;
#172 = ADVANCED_FACE ( 'NONE', ( #39, #138 ), #141, .T. ) ;
#173 =( GEOMETRIC_REPRESENTATION_CONTEXT ( 3 ) GLOBAL_UNCERTAINTY_ASSIGNED_CONTEXT ( ( #180 ) ) GLOBAL_UNIT_ASSIGNED_CONTEXT ( ( #207, #206, #59 ) ) REPRESENTATION_CONTEXT ( 'NONE', 'WORKASPACE' ) );
#174 = CLOSED_SHELL ( 'NONE', ( #171, #108, #129, #209, #61, #63, #31, #172 ) ) ;
#175 = DIRECTION ( 'NONE',  ( 0.0000000000000000000, 0.0000000000000000000, -1.000000000000000000 ) ) ;
#176 = PRODUCT_DEFINITION_CONTEXT ( 'detailed design', #10, 'design' ) ;
#177 = EDGE_LOOP ( 'NONE', ( #83 ) ) ;
#178 = CARTESIAN_POINT ( 'NONE',  ( -2.899999999999999900, 0.0000000000000000000, 0.2500000000000000000 ) ) ;
#179 = CARTESIAN_POINT ( 'NONE',  ( 2.000000000000000000, 0.0000000000000000000, 9.549999999999998900 ) ) ;
#180 = UNCERTAINTY_MEASURE_WITH_UNIT (LENGTH_MEASURE( 1.000000000000000100E-005 ), #207, 'distance_accuracy_value', 'NONE');
#181 = EDGE_LOOP ( 'NONE', ( #188 ) ) ;
#182 = DIRECTION ( 'NONE',  ( 0.0000000000000000000, 0.0000000000000000000, 1.000000000000000000 ) ) ;
#183 = CARTESIAN_POINT ( 'NONE',  ( 0.0000000000000000000, 0.0000000000000000000, 0.0000000000000000000 ) ) ;
#184 = PRODUCT_DEFINITION_SHAPE ( 'NONE', 'NONE',  #158 ) ;
#185 =( GEOMETRIC_REPRESENTATION_CONTEXT ( 3 ) GLOBAL_UNCERTAINTY_ASSIGNED_CONTEXT ( ( #28 ) ) GLOBAL_UNIT_ASSIGNED_CONTEXT ( ( #24, #121, #139 ) ) REPRESENTATION_CONTEXT ( 'NONE', 'WORKASPACE' ) );
#186 = CARTESIAN_POINT ( 'NONE',  ( 0.0000000000000000000, 0.0000000000000000000, 0.2000000000000005100 ) ) ;
#187 = FACE_OUTER_BOUND ( 'NONE', #123, .T. ) ;
#188 = ORIENTED_EDGE ( 'NONE', *, *, #93, .F. ) ;
#189 = MECHANICAL_DESIGN_GEOMETRIC_PRESENTATION_REPRESENTATION (  '', ( #111 ), #173 ) ;
#190 = ORIENTED_EDGE ( 'NONE', *, *, #109, .F. ) ;
#191 = AXIS2_PLACEMENT_3D ( 'NONE', #84, #214, #114 ) ;
#192 = EDGE_LOOP ( 'NONE', ( #125 ) ) ;
#193 = PLANE ( 'NONE',  #202 ) ;
#194 = AXIS2_PLACEMENT_3D ( 'NONE', #75, #163, #164 ) ;
#195 = DIRECTION ( 'NONE',  ( -1.000000000000000000, 0.0000000000000000000, 0.0000000000000000000 ) ) ;
#196 = FILL_AREA_STYLE ('',( #135 ) ) ;
#197 = ORIENTED_EDGE ( 'NONE', *, *, #101, .F. ) ;
#198 = UNCERTAINTY_MEASURE_WITH_UNIT (LENGTH_MEASURE( 1.000000000000000100E-005 ), #167, 'distance_accuracy_value', 'NONE');
#199 = FILL_AREA_STYLE_COLOUR ( '', #169 ) ;
#200 = CARTESIAN_POINT ( 'NONE',  ( 0.0000000000000000000, 0.0000000000000000000, 0.2000000000000005100 ) ) ;
#201 = DIRECTION ( 'NONE',  ( -0.0000000000000000000, -0.0000000000000000000, -1.000000000000000000 ) ) ;
#202 = AXIS2_PLACEMENT_3D ( 'NONE', #116, #70, #69 ) ;
#203 = EDGE_LOOP ( 'NONE', ( #68 ) ) ;
#204 = DIRECTION ( 'NONE',  ( 0.0000000000000000000, 0.0000000000000000000, 1.000000000000000000 ) ) ;
#205 = APPLICATION_CONTEXT ( 'automotive_design' ) ;
#206 =( NAMED_UNIT ( * ) PLANE_ANGLE_UNIT ( ) SI_UNIT ( $, .RADIAN. ) );
#207 =( LENGTH_UNIT ( ) NAMED_UNIT ( * ) SI_UNIT ( .MILLI., .METRE. ) );
#208 = FACE_OUTER_BOUND ( 'NONE', #27, .T. ) ;
#209 = ADVANCED_FACE ( 'NONE', ( #62, #128 ), #137, .F. ) ;
#210 = VERTEX_POINT ( 'NONE', #56 ) ;
#211 = EDGE_LOOP ( 'NONE', ( #119 ) ) ;
#212 = EDGE_CURVE ( 'NONE', #161, #161, #213, .T. ) ;
#213 = CIRCLE ( 'NONE', #194, 1.925000000000000300 ) ;
#214 = DIRECTION ( 'NONE',  ( 0.0000000000000000000, 0.0000000000000000000, 1.000000000000000000 ) ) ;
ENDSEC;
END-ISO-10303-21;
