ISO-10303-21;
HEADER;
FILE_DESCRIPTION (( 'STEP AP214' ),
    '1' );
FILE_NAME ('104Èí¹Ü³ÄÌ×T1-4.STEP',
    '2019-08-01T08:26:03',
    ( '' ),
    ( '' ),
    'SwSTEP 2.0',
    'SolidWorks 2014',
    '' );
FILE_SCHEMA (( 'AUTOMOTIVE_DESIGN' ));
ENDSEC;

DATA;
#1 = FACE_OUTER_BOUND ( 'NONE', #202, .T. ) ;
#2 = FACE_OUTER_BOUND ( 'NONE', #160, .T. ) ;
#3 =( GEOMETRIC_REPRESENTATION_CONTEXT ( 3 ) GLOBAL_UNCERTAINTY_ASSIGNED_CONTEXT ( ( #78 ) ) GLOBAL_UNIT_ASSIGNED_CONTEXT ( ( #358, #328, #176 ) ) REPRESENTATION_CONTEXT ( 'NONE', 'WORKASPACE' ) );
#4 =( NAMED_UNIT ( * ) PLANE_ANGLE_UNIT ( ) SI_UNIT ( $, .RADIAN. ) );
#5 = SURFACE_STYLE_FILL_AREA ( #333 ) ;
#6 = PLANE ( 'NONE',  #251 ) ;
#7 = SURFACE_SIDE_STYLE ('',( #336 ) ) ;
#8 = PRESENTATION_LAYER_ASSIGNMENT (  '', '', ( #397 ) ) ;
#9 = MANIFOLD_SOLID_BREP ( 'ÇÐ³ý-À­Éì1', #375 ) ;
#10 = SURFACE_STYLE_USAGE ( .BOTH. , #257 ) ;
#11 = PRESENTATION_STYLE_ASSIGNMENT (( #30 ) ) ;
#12 = CARTESIAN_POINT ( 'NONE',  ( 0.0000000000000000000, 0.0000000000000000000, 10.00000000000000000 ) ) ;
#13 = FILL_AREA_STYLE_COLOUR ( '', #173 ) ;
#14 = DIRECTION ( 'NONE',  ( 0.0000000000000000000, 0.0000000000000000000, -1.000000000000000000 ) ) ;
#15 = MECHANICAL_DESIGN_GEOMETRIC_PRESENTATION_REPRESENTATION (  '', ( #169 ), #231 ) ;
#16 = COLOUR_RGB ( '',0.7529411764705882200, 0.7529411764705882200, 0.0000000000000000000 ) ;
#17 = EDGE_LOOP ( 'NONE', ( #276 ) ) ;
#18 = FILL_AREA_STYLE_COLOUR ( '', #16 ) ;
#19 = AXIS2_PLACEMENT_3D ( 'NONE', #377, #104, #324 ) ;
#20 = PRESENTATION_STYLE_ASSIGNMENT (( #152 ) ) ;
#21 = CARTESIAN_POINT ( 'NONE',  ( 0.0000000000000000000, 0.0000000000000000000, 9.549999999999998900 ) ) ;
#22 = COLOUR_RGB ( '',0.7529411764705882200, 0.7529411764705882200, 0.0000000000000000000 ) ;
#23 = FACE_OUTER_BOUND ( 'NONE', #111, .T. ) ;
#24 = ORIENTED_EDGE ( 'NONE', *, *, #317, .T. ) ;
#25 = DIRECTION ( 'NONE',  ( 0.0000000000000000000, 0.0000000000000000000, -1.000000000000000000 ) ) ;
#26 = PRESENTATION_LAYER_ASSIGNMENT (  '', '', ( #325 ) ) ;
#27 = DIRECTION ( 'NONE',  ( 0.0000000000000000000, 0.0000000000000000000, -1.000000000000000000 ) ) ;
#28 = CARTESIAN_POINT ( 'NONE',  ( -1.000000000000001100, 0.0000000000000000000, 0.4500000000000007300 ) ) ;
#29 = EDGE_CURVE ( 'NONE', #342, #342, #250, .T. ) ;
#30 = SURFACE_STYLE_USAGE ( .BOTH. , #208 ) ;
#31 = PRESENTATION_LAYER_ASSIGNMENT (  '', '', ( #100 ) ) ;
#32 = SURFACE_STYLE_FILL_AREA ( #51 ) ;
#33 = UNCERTAINTY_MEASURE_WITH_UNIT (LENGTH_MEASURE( 1.000000000000000100E-005 ), #386, 'distance_accuracy_value', 'NONE');
#34 = CYLINDRICAL_SURFACE ( 'NONE', #124, 1.899999999999999700 ) ;
#35 = FACE_OUTER_BOUND ( 'NONE', #46, .T. ) ;
#36 = EDGE_LOOP ( 'NONE', ( #122 ) ) ;
#37 = FILL_AREA_STYLE ('',( #323 ) ) ;
#38 =( NAMED_UNIT ( * ) PLANE_ANGLE_UNIT ( ) SI_UNIT ( $, .RADIAN. ) );
#39 = SURFACE_STYLE_FILL_AREA ( #399 ) ;
#40 = COLOUR_RGB ( '',0.7529411764705882200, 0.7529411764705882200, 0.0000000000000000000 ) ;
#41 = EDGE_LOOP ( 'NONE', ( #24 ) ) ;
#42 = MECHANICAL_DESIGN_GEOMETRIC_PRESENTATION_REPRESENTATION (  '', ( #299 ), #318 ) ;
#43 = DIRECTION ( 'NONE',  ( 0.0000000000000000000, 0.0000000000000000000, -1.000000000000000000 ) ) ;
#44 = VERTEX_POINT ( 'NONE', #367 ) ;
#45 = SURFACE_SIDE_STYLE ('',( #322 ) ) ;
#46 = EDGE_LOOP ( 'NONE', ( #140 ) ) ;
#47 = CARTESIAN_POINT ( 'NONE',  ( 0.0000000000000000000, 0.0000000000000000000, 0.2500000000000000000 ) ) ;
#48 = ADVANCED_FACE ( 'NONE', ( #50, #379 ), #197, .T. ) ;
#49 =( LENGTH_UNIT ( ) NAMED_UNIT ( * ) SI_UNIT ( .MILLI., .METRE. ) );
#50 = FACE_OUTER_BOUND ( 'NONE', #278, .T. ) ;
#51 = FILL_AREA_STYLE ('',( #212 ) ) ;
#52 = AXIS2_PLACEMENT_3D ( 'NONE', #255, #266, #393 ) ;
#53 = ADVANCED_FACE ( 'NONE', ( #2, #23 ), #139, .F. ) ;
#54 =( NAMED_UNIT ( * ) SI_UNIT ( $, .STERADIAN. ) SOLID_ANGLE_UNIT ( ) );
#55 = PRESENTATION_LAYER_ASSIGNMENT (  '', '', ( #320 ) ) ;
#56 = PRODUCT_DEFINITION ( 'Î´Öª', '', #362, #273 ) ;
#57 = CIRCLE ( 'NONE', #238, 1.000000000000001100 ) ;
#58 = CARTESIAN_POINT ( 'NONE',  ( -1.899999999999999700, 0.0000000000000000000, 0.0000000000000000000 ) ) ;
#59 = FACE_OUTER_BOUND ( 'NONE', #36, .T. ) ;
#60 = ORIENTED_EDGE ( 'NONE', *, *, #368, .T. ) ;
#61 = CARTESIAN_POINT ( 'NONE',  ( 0.0000000000000000000, 0.0000000000000000000, 0.2500000000000000000 ) ) ;
#62 = CARTESIAN_POINT ( 'NONE',  ( 0.0000000000000000000, 0.0000000000000000000, 9.549999999999998900 ) ) ;
#63 = AXIS2_PLACEMENT_3D ( 'NONE', #327, #14, #232 ) ;
#64 = CIRCLE ( 'NONE', #63, 1.899999999999999700 ) ;
#65 = CIRCLE ( 'NONE', #52, 0.9749999999999999800 ) ;
#66 = STYLED_ITEM ( 'NONE', ( #330 ), #179 ) ;
#67 = VERTEX_POINT ( 'NONE', #88 ) ;
#68 = EDGE_LOOP ( 'NONE', ( #283 ) ) ;
#69 =( LENGTH_UNIT ( ) NAMED_UNIT ( * ) SI_UNIT ( .MILLI., .METRE. ) );
#70 = SURFACE_SIDE_STYLE ('',( #261 ) ) ;
#71 = PRESENTATION_STYLE_ASSIGNMENT (( #132 ) ) ;
#72 =( NAMED_UNIT ( * ) SI_UNIT ( $, .STERADIAN. ) SOLID_ANGLE_UNIT ( ) );
#73 = AXIS2_PLACEMENT_3D ( 'NONE', #12, #194, #224 ) ;
#74 =( LENGTH_UNIT ( ) NAMED_UNIT ( * ) SI_UNIT ( .MILLI., .METRE. ) );
#75 = VERTEX_POINT ( 'NONE', #58 ) ;
#76 = FACE_OUTER_BOUND ( 'NONE', #190, .T. ) ;
#77 = UNCERTAINTY_MEASURE_WITH_UNIT (LENGTH_MEASURE( 1.000000000000000100E-005 ), #297, 'distance_accuracy_value', 'NONE');
#78 = UNCERTAINTY_MEASURE_WITH_UNIT (LENGTH_MEASURE( 1.000000000000000100E-005 ), #358, 'distance_accuracy_value', 'NONE');
#79 = MECHANICAL_DESIGN_GEOMETRIC_PRESENTATION_REPRESENTATION (  '', ( #66 ), #3 ) ;
#80 = CARTESIAN_POINT ( 'NONE',  ( 0.0000000000000000000, 0.0000000000000000000, 7.589415207398531000E-016 ) ) ;
#81 = FACE_OUTER_BOUND ( 'NONE', #402, .T. ) ;
#82 = DIRECTION ( 'NONE',  ( 1.000000000000000000, 0.0000000000000000000, -0.0000000000000000000 ) ) ;
#83 = FILL_AREA_STYLE ('',( #18 ) ) ;
#84 = DIRECTION ( 'NONE',  ( -1.000000000000000000, 0.0000000000000000000, 0.0000000000000000000 ) ) ;
#85 = CARTESIAN_POINT ( 'NONE',  ( 0.0000000000000000000, 0.0000000000000000000, 0.4500000000000007300 ) ) ;
#86 =( LENGTH_UNIT ( ) NAMED_UNIT ( * ) SI_UNIT ( .MILLI., .METRE. ) );
#87 = UNCERTAINTY_MEASURE_WITH_UNIT (LENGTH_MEASURE( 1.000000000000000100E-005 ), #74, 'distance_accuracy_value', 'NONE');
#88 = CARTESIAN_POINT ( 'NONE',  ( -0.9749999999999999800, 0.0000000000000000000, 9.964578098794426400 ) ) ;
#89 = ADVANCED_FACE ( 'NONE', ( #92, #163 ), #394, .F. ) ;
#90 = APPLICATION_CONTEXT ( 'automotive_design' ) ;
#91 = PRESENTATION_STYLE_ASSIGNMENT (( #352 ) ) ;
#92 = FACE_OUTER_BOUND ( 'NONE', #128, .T. ) ;
#93 = PRODUCT_DEFINITION_SHAPE ( 'NONE', 'NONE',  #56 ) ;
#94 =( GEOMETRIC_REPRESENTATION_CONTEXT ( 3 ) GLOBAL_UNCERTAINTY_ASSIGNED_CONTEXT ( ( #258 ) ) GLOBAL_UNIT_ASSIGNED_CONTEXT ( ( #181, #120, #54 ) ) REPRESENTATION_CONTEXT ( 'NONE', 'WORKASPACE' ) );
#95 = FILL_AREA_STYLE ('',( #96 ) ) ;
#96 = FILL_AREA_STYLE_COLOUR ( '', #127 ) ;
#97 = UNCERTAINTY_MEASURE_WITH_UNIT (LENGTH_MEASURE( 1.000000000000000100E-005 ), #113, 'distance_accuracy_value', 'NONE');
#98 = EDGE_LOOP ( 'NONE', ( #193 ) ) ;
#99 = FILL_AREA_STYLE_COLOUR ( '', #314 ) ;
#100 = STYLED_ITEM ( 'NONE', ( #20 ), #279 ) ;
#101 = ORIENTED_EDGE ( 'NONE', *, *, #368, .F. ) ;
#102 = DIRECTION ( 'NONE',  ( 0.0000000000000000000, 0.0000000000000000000, 1.000000000000000000 ) ) ;
#103 =( LENGTH_UNIT ( ) NAMED_UNIT ( * ) SI_UNIT ( .MILLI., .METRE. ) );
#104 = DIRECTION ( 'NONE',  ( 0.0000000000000000000, 0.0000000000000000000, -1.000000000000000000 ) ) ;
#105 = TOROIDAL_SURFACE ( 'NONE', #135, 1.450000000000001300, 0.2000000000000000100 ) ;
#106 =( NAMED_UNIT ( * ) SI_UNIT ( $, .STERADIAN. ) SOLID_ANGLE_UNIT ( ) );
#107 = ORIENTED_EDGE ( 'NONE', *, *, #172, .T. ) ;
#108 =( NAMED_UNIT ( * ) SI_UNIT ( $, .STERADIAN. ) SOLID_ANGLE_UNIT ( ) );
#109 = AXIS2_PLACEMENT_3D ( 'NONE', #229, #391, #175 ) ;
#110 =( NAMED_UNIT ( * ) SI_UNIT ( $, .STERADIAN. ) SOLID_ANGLE_UNIT ( ) );
#111 = EDGE_LOOP ( 'NONE', ( #60 ) ) ;
#112 =( NAMED_UNIT ( * ) PLANE_ANGLE_UNIT ( ) SI_UNIT ( $, .RADIAN. ) );
#113 =( LENGTH_UNIT ( ) NAMED_UNIT ( * ) SI_UNIT ( .MILLI., .METRE. ) );
#114 = PRODUCT_RELATED_PRODUCT_CATEGORY ( 'part', '', ( #287 ) ) ;
#115 = CARTESIAN_POINT ( 'NONE',  ( 0.0000000000000000000, 0.0000000000000000000, 0.0000000000000000000 ) ) ;
#116 =( GEOMETRIC_REPRESENTATION_CONTEXT ( 3 ) GLOBAL_UNCERTAINTY_ASSIGNED_CONTEXT ( ( #220 ) ) GLOBAL_UNIT_ASSIGNED_CONTEXT ( ( #86, #182, #147 ) ) REPRESENTATION_CONTEXT ( 'NONE', 'WORKASPACE' ) );
#117 = CARTESIAN_POINT ( 'NONE',  ( 0.0000000000000000000, 0.0000000000000000000, 0.4500000000000007300 ) ) ;
#118 = CARTESIAN_POINT ( 'NONE',  ( -1.250000000000001100, 0.0000000000000000000, 0.4500000000000007300 ) ) ;
#119 = ADVANCED_FACE ( 'NONE', ( #289, #187 ), #373, .T. ) ;
#120 =( NAMED_UNIT ( * ) PLANE_ANGLE_UNIT ( ) SI_UNIT ( $, .RADIAN. ) );
#121 = VERTEX_POINT ( 'NONE', #371 ) ;
#122 = ORIENTED_EDGE ( 'NONE', *, *, #317, .F. ) ;
#123 = ADVANCED_FACE ( 'NONE', ( #1, #35 ), #359, .F. ) ;
#124 = AXIS2_PLACEMENT_3D ( 'NONE', #145, #43, #305 ) ;
#125 = PRODUCT_CONTEXT ( 'NONE', #146, 'mechanical' ) ;
#126 = CIRCLE ( 'NONE', #109, 1.000000000000001100 ) ;
#127 = COLOUR_RGB ( '',0.7529411764705882200, 0.7529411764705882200, 0.7529411764705882200 ) ;
#128 = EDGE_LOOP ( 'NONE', ( #101 ) ) ;
#129 = PRESENTATION_LAYER_ASSIGNMENT (  '', '', ( #186 ) ) ;
#130 = SURFACE_STYLE_FILL_AREA ( #95 ) ;
#131 = EDGE_CURVE ( 'NONE', #67, #67, #65, .T. ) ;
#132 = SURFACE_STYLE_USAGE ( .BOTH. , #321 ) ;
#133 = COLOUR_RGB ( '',0.7529411764705882200, 0.7529411764705882200, 0.0000000000000000000 ) ;
#134 = FILL_AREA_STYLE ('',( #158 ) ) ;
#135 = AXIS2_PLACEMENT_3D ( 'NONE', #117, #25, #240 ) ;
#136 = UNCERTAINTY_MEASURE_WITH_UNIT (LENGTH_MEASURE( 1.000000000000000100E-005 ), #69, 'distance_accuracy_value', 'NONE');
#137 = DIRECTION ( 'NONE',  ( -0.0000000000000000000, -0.0000000000000000000, -1.000000000000000000 ) ) ;
#138 = COLOUR_RGB ( '',0.7529411764705882200, 0.7529411764705882200, 0.7529411764705882200 ) ;
#139 = TOROIDAL_SURFACE ( 'NONE', #161, 0.8000000000000011500, 0.1999999999999999800 ) ;
#140 = ORIENTED_EDGE ( 'NONE', *, *, #172, .F. ) ;
#141 = DIRECTION ( 'NONE',  ( -1.000000000000000000, 0.0000000000000000000, 0.0000000000000000000 ) ) ;
#142 = MECHANICAL_DESIGN_GEOMETRIC_PRESENTATION_REPRESENTATION (  '', ( #100 ), #116 ) ;
#143 = SURFACE_STYLE_USAGE ( .BOTH. , #269 ) ;
#144 = SURFACE_STYLE_FILL_AREA ( #353 ) ;
#145 = CARTESIAN_POINT ( 'NONE',  ( 0.0000000000000000000, 0.0000000000000000000, 0.2500000000000000000 ) ) ;
#146 = APPLICATION_CONTEXT ( 'automotive_design' ) ;
#147 =( NAMED_UNIT ( * ) SI_UNIT ( $, .STERADIAN. ) SOLID_ANGLE_UNIT ( ) );
#148 = CIRCLE ( 'NONE', #248, 1.250000000000001100 ) ;
#149 = TOROIDAL_SURFACE ( 'NONE', #221, 0.8000000000000011500, 0.4500000000000000100 ) ;
#150 = ADVANCED_FACE ( 'NONE', ( #201, #369 ), #6, .F. ) ;
#151 = ORIENTED_EDGE ( 'NONE', *, *, #131, .T. ) ;
#152 = SURFACE_STYLE_USAGE ( .BOTH. , #237 ) ;
#153 =( NAMED_UNIT ( * ) PLANE_ANGLE_UNIT ( ) SI_UNIT ( $, .RADIAN. ) );
#154 = AXIS2_PLACEMENT_3D ( 'NONE', #62, #285, #225 ) ;
#155 = FACE_BOUND ( 'NONE', #98, .T. ) ;
#156 = COLOUR_RGB ( '',0.7529411764705882200, 0.7529411764705882200, 0.0000000000000000000 ) ;
#157 =( GEOMETRIC_REPRESENTATION_CONTEXT ( 3 ) GLOBAL_UNCERTAINTY_ASSIGNED_CONTEXT ( ( #294 ) ) GLOBAL_UNIT_ASSIGNED_CONTEXT ( ( #338, #153, #396 ) ) REPRESENTATION_CONTEXT ( 'NONE', 'WORKASPACE' ) );
#158 = FILL_AREA_STYLE_COLOUR ( '', #156 ) ;
#159 = CIRCLE ( 'NONE', #247, 1.450000000000001300 ) ;
#160 = EDGE_LOOP ( 'NONE', ( #107 ) ) ;
#161 = AXIS2_PLACEMENT_3D ( 'NONE', #165, #102, #164 ) ;
#162 = CIRCLE ( 'NONE', #348, 0.9749999999999999800 ) ;
#163 = FACE_OUTER_BOUND ( 'NONE', #341, .T. ) ;
#164 = DIRECTION ( 'NONE',  ( 1.000000000000000000, 0.0000000000000000000, 0.0000000000000000000 ) ) ;
#165 = CARTESIAN_POINT ( 'NONE',  ( 0.0000000000000000000, 0.0000000000000000000, 9.549999999999998900 ) ) ;
#166 = SURFACE_STYLE_USAGE ( .BOTH. , #263 ) ;
#167 = FILL_AREA_STYLE_COLOUR ( '', #40 ) ;
#168 = ORIENTED_EDGE ( 'NONE', *, *, #183, .T. ) ;
#169 = STYLED_ITEM ( 'NONE', ( #343 ), #150 ) ;
#170 = DIRECTION ( 'NONE',  ( -1.000000000000000000, 0.0000000000000000000, -0.0000000000000000000 ) ) ;
#171 = DIRECTION ( 'NONE',  ( 0.0000000000000000000, 0.0000000000000000000, 1.000000000000000000 ) ) ;
#172 = EDGE_CURVE ( 'NONE', #267, #267, #162, .T. ) ;
#173 = COLOUR_RGB ( '',0.7529411764705882200, 0.7529411764705882200, 0.0000000000000000000 ) ;
#174 = FILL_AREA_STYLE ('',( #13 ) ) ;
#175 = DIRECTION ( 'NONE',  ( -1.000000000000000000, 0.0000000000000000000, 0.0000000000000000000 ) ) ;
#176 =( NAMED_UNIT ( * ) SI_UNIT ( $, .STERADIAN. ) SOLID_ANGLE_UNIT ( ) );
#177 = CARTESIAN_POINT ( 'NONE',  ( -0.9749999999999999800, 0.0000000000000000000, 9.646824583655186900 ) ) ;
#178 = PRESENTATION_LAYER_ASSIGNMENT (  '', '', ( #381 ) ) ;
#179 = ADVANCED_FACE ( 'NONE', ( #282, #76 ), #149, .T. ) ;
#180 = PRESENTATION_STYLE_ASSIGNMENT (( #10 ) ) ;
#181 =( LENGTH_UNIT ( ) NAMED_UNIT ( * ) SI_UNIT ( .MILLI., .METRE. ) );
#182 =( NAMED_UNIT ( * ) PLANE_ANGLE_UNIT ( ) SI_UNIT ( $, .RADIAN. ) );
#183 = EDGE_CURVE ( 'NONE', #400, #400, #159, .T. ) ;
#184 = DIRECTION ( 'NONE',  ( -1.000000000000000000, 0.0000000000000000000, 0.0000000000000000000 ) ) ;
#185 = VERTEX_POINT ( 'NONE', #311 ) ;
#186 = STYLED_ITEM ( 'NONE', ( #91 ), #119 ) ;
#187 = FACE_OUTER_BOUND ( 'NONE', #41, .T. ) ;
#188 = ORIENTED_EDGE ( 'NONE', *, *, #183, .F. ) ;
#189 = ADVANCED_BREP_SHAPE_REPRESENTATION ( '104Èí¹Ü³ÄÌ×T1-4', ( #9, #265 ), #157 ) ;
#190 = EDGE_LOOP ( 'NONE', ( #241 ) ) ;
#191 = UNCERTAINTY_MEASURE_WITH_UNIT (LENGTH_MEASURE( 1.000000000000000100E-005 ), #49, 'distance_accuracy_value', 'NONE');
#192 = COLOUR_RGB ( '',0.7529411764705882200, 0.7529411764705882200, 0.0000000000000000000 ) ;
#193 = ORIENTED_EDGE ( 'NONE', *, *, #296, .T. ) ;
#194 = DIRECTION ( 'NONE',  ( -0.0000000000000000000, -0.0000000000000000000, -1.000000000000000000 ) ) ;
#195 = DIRECTION ( 'NONE',  ( -1.000000000000000000, 0.0000000000000000000, 0.0000000000000000000 ) ) ;
#196 = DIRECTION ( 'NONE',  ( -1.000000000000000000, 0.0000000000000000000, 0.0000000000000000000 ) ) ;
#197 = TOROIDAL_SURFACE ( 'NONE', #19, 1.450000000000001300, 0.4500000000000000100 ) ;
#198 = STYLED_ITEM ( 'NONE', ( #11 ), #189 ) ;
#199 = DIRECTION ( 'NONE',  ( -0.0000000000000000000, -0.0000000000000000000, -1.000000000000000000 ) ) ;
#200 =( NAMED_UNIT ( * ) PLANE_ANGLE_UNIT ( ) SI_UNIT ( $, .RADIAN. ) );
#201 = FACE_OUTER_BOUND ( 'NONE', #380, .T. ) ;
#202 = EDGE_LOOP ( 'NONE', ( #151 ) ) ;
#203 = PRESENTATION_LAYER_ASSIGNMENT (  '', '', ( #169 ) ) ;
#204 = CARTESIAN_POINT ( 'NONE',  ( 0.0000000000000000000, 0.0000000000000000000, 9.646824583655186900 ) ) ;
#205 = DIRECTION ( 'NONE',  ( 0.0000000000000000000, 0.0000000000000000000, 1.000000000000000000 ) ) ;
#206 = CARTESIAN_POINT ( 'NONE',  ( 0.0000000000000000000, 0.0000000000000000000, 0.0000000000000000000 ) ) ;
#207 = SURFACE_STYLE_FILL_AREA ( #134 ) ;
#208 = SURFACE_SIDE_STYLE ('',( #32 ) ) ;
#209 = MECHANICAL_DESIGN_GEOMETRIC_PRESENTATION_REPRESENTATION (  '', ( #381 ), #281 ) ;
#210 = SURFACE_STYLE_FILL_AREA ( #174 ) ;
#211 = SURFACE_STYLE_FILL_AREA ( #292 ) ;
#212 = FILL_AREA_STYLE_COLOUR ( '', #138 ) ;
#213 =( NAMED_UNIT ( * ) PLANE_ANGLE_UNIT ( ) SI_UNIT ( $, .RADIAN. ) );
#214 = ADVANCED_FACE ( 'NONE', ( #155, #81 ), #302, .F. ) ;
#215 =( NAMED_UNIT ( * ) SI_UNIT ( $, .STERADIAN. ) SOLID_ANGLE_UNIT ( ) );
#216 = PRESENTATION_STYLE_ASSIGNMENT (( #249 ) ) ;
#217 =( NAMED_UNIT ( * ) SI_UNIT ( $, .STERADIAN. ) SOLID_ANGLE_UNIT ( ) );
#218 = EDGE_CURVE ( 'NONE', #259, #259, #126, .T. ) ;
#219 = EDGE_LOOP ( 'NONE', ( #188 ) ) ;
#220 = UNCERTAINTY_MEASURE_WITH_UNIT (LENGTH_MEASURE( 1.000000000000000100E-005 ), #86, 'distance_accuracy_value', 'NONE');
#221 = AXIS2_PLACEMENT_3D ( 'NONE', #332, #171, #355 ) ;
#222 = FILL_AREA_STYLE_COLOUR ( '', #192 ) ;
#223 = COLOUR_RGB ( '',0.7529411764705882200, 0.7529411764705882200, 0.0000000000000000000 ) ;
#224 = DIRECTION ( 'NONE',  ( -1.000000000000000000, 0.0000000000000000000, 0.0000000000000000000 ) ) ;
#225 = DIRECTION ( 'NONE',  ( 1.000000000000000000, 0.0000000000000000000, 0.0000000000000000000 ) ) ;
#226 = EDGE_CURVE ( 'NONE', #75, #75, #64, .T. ) ;
#227 =( GEOMETRIC_REPRESENTATION_CONTEXT ( 3 ) GLOBAL_UNCERTAINTY_ASSIGNED_CONTEXT ( ( #395 ) ) GLOBAL_UNIT_ASSIGNED_CONTEXT ( ( #312, #213, #215 ) ) REPRESENTATION_CONTEXT ( 'NONE', 'WORKASPACE' ) );
#228 = CIRCLE ( 'NONE', #331, 1.450000000000001300 ) ;
#229 = CARTESIAN_POINT ( 'NONE',  ( 0.0000000000000000000, 0.0000000000000000000, 0.4500000000000007300 ) ) ;
#230 = EDGE_LOOP ( 'NONE', ( #310 ) ) ;
#231 =( GEOMETRIC_REPRESENTATION_CONTEXT ( 3 ) GLOBAL_UNCERTAINTY_ASSIGNED_CONTEXT ( ( #191 ) ) GLOBAL_UNIT_ASSIGNED_CONTEXT ( ( #49, #112, #233 ) ) REPRESENTATION_CONTEXT ( 'NONE', 'WORKASPACE' ) );
#232 = DIRECTION ( 'NONE',  ( -1.000000000000000000, 0.0000000000000000000, 0.0000000000000000000 ) ) ;
#233 =( NAMED_UNIT ( * ) SI_UNIT ( $, .STERADIAN. ) SOLID_ANGLE_UNIT ( ) );
#234 = MECHANICAL_DESIGN_GEOMETRIC_PRESENTATION_REPRESENTATION (  '', ( #347 ), #382 ) ;
#235 = DIRECTION ( 'NONE',  ( 0.0000000000000000000, 0.0000000000000000000, -1.000000000000000000 ) ) ;
#236 = DIRECTION ( 'NONE',  ( 0.0000000000000000000, 0.0000000000000000000, 1.000000000000000000 ) ) ;
#237 = SURFACE_SIDE_STYLE ('',( #357 ) ) ;
#238 = AXIS2_PLACEMENT_3D ( 'NONE', #21, #366, #309 ) ;
#239 = CIRCLE ( 'NONE', #274, 1.899999999999999700 ) ;
#240 = DIRECTION ( 'NONE',  ( -1.000000000000000000, 0.0000000000000000000, 0.0000000000000000000 ) ) ;
#241 = ORIENTED_EDGE ( 'NONE', *, *, #29, .F. ) ;
#242 = SURFACE_STYLE_USAGE ( .BOTH. , #334 ) ;
#243 = MECHANICAL_DESIGN_GEOMETRIC_PRESENTATION_REPRESENTATION (  '', ( #320 ), #288 ) ;
#244 = CARTESIAN_POINT ( 'NONE',  ( 0.0000000000000000000, 0.0000000000000000000, 10.00000000000000000 ) ) ;
#245 = ADVANCED_FACE ( 'NONE', ( #389, #384 ), #34, .T. ) ;
#246 = DIRECTION ( 'NONE',  ( 0.0000000000000000000, 0.0000000000000000000, 1.000000000000000000 ) ) ;
#247 = AXIS2_PLACEMENT_3D ( 'NONE', #80, #235, #141 ) ;
#248 = AXIS2_PLACEMENT_3D ( 'NONE', #85, #308, #275 ) ;
#249 = SURFACE_STYLE_USAGE ( .BOTH. , #316 ) ;
#250 = CIRCLE ( 'NONE', #154, 1.250000000000001100 ) ;
#251 = AXIS2_PLACEMENT_3D ( 'NONE', #115, #205, #82 ) ;
#252 = SHAPE_DEFINITION_REPRESENTATION ( #93, #189 ) ;
#253 =( NAMED_UNIT ( * ) PLANE_ANGLE_UNIT ( ) SI_UNIT ( $, .RADIAN. ) );
#254 = EDGE_LOOP ( 'NONE', ( #262 ) ) ;
#255 = CARTESIAN_POINT ( 'NONE',  ( 0.0000000000000000000, 0.0000000000000000000, 9.964578098794426400 ) ) ;
#256 = SURFACE_STYLE_USAGE ( .BOTH. , #70 ) ;
#257 = SURFACE_SIDE_STYLE ('',( #207 ) ) ;
#258 = UNCERTAINTY_MEASURE_WITH_UNIT (LENGTH_MEASURE( 1.000000000000000100E-005 ), #181, 'distance_accuracy_value', 'NONE');
#259 = VERTEX_POINT ( 'NONE', #28 ) ;
#260 = PRESENTATION_LAYER_ASSIGNMENT (  '', '', ( #198 ) ) ;
#261 = SURFACE_STYLE_FILL_AREA ( #388 ) ;
#262 = ORIENTED_EDGE ( 'NONE', *, *, #131, .F. ) ;
#263 = SURFACE_SIDE_STYLE ('',( #144 ) ) ;
#264 = DIRECTION ( 'NONE',  ( 0.0000000000000000000, 0.0000000000000000000, -1.000000000000000000 ) ) ;
#265 = AXIS2_PLACEMENT_3D ( 'NONE', #206, #246, #340 ) ;
#266 = DIRECTION ( 'NONE',  ( 0.0000000000000000000, 0.0000000000000000000, 1.000000000000000000 ) ) ;
#267 = VERTEX_POINT ( 'NONE', #177 ) ;
#268 = PRESENTATION_STYLE_ASSIGNMENT (( #242 ) ) ;
#269 = SURFACE_SIDE_STYLE ('',( #210 ) ) ;
#270 = ORIENTED_EDGE ( 'NONE', *, *, #218, .F. ) ;
#271 = AXIS2_PLACEMENT_3D ( 'NONE', #293, #199, #196 ) ;
#272 = FILL_AREA_STYLE_COLOUR ( '', #133 ) ;
#273 = PRODUCT_DEFINITION_CONTEXT ( 'detailed design', #90, 'design' ) ;
#274 = AXIS2_PLACEMENT_3D ( 'NONE', #306, #27, #184 ) ;
#275 = DIRECTION ( 'NONE',  ( -1.000000000000000000, 0.0000000000000000000, 0.0000000000000000000 ) ) ;
#276 = ORIENTED_EDGE ( 'NONE', *, *, #226, .F. ) ;
#277 = FILL_AREA_STYLE_COLOUR ( '', #298 ) ;
#278 = EDGE_LOOP ( 'NONE', ( #370 ) ) ;
#279 = ADVANCED_FACE ( 'NONE', ( #59, #378 ), #105, .F. ) ;
#280 = FILL_AREA_STYLE ('',( #277 ) ) ;
#281 =( GEOMETRIC_REPRESENTATION_CONTEXT ( 3 ) GLOBAL_UNCERTAINTY_ASSIGNED_CONTEXT ( ( #365 ) ) GLOBAL_UNIT_ASSIGNED_CONTEXT ( ( #103, #253, #383 ) ) REPRESENTATION_CONTEXT ( 'NONE', 'WORKASPACE' ) );
#282 = FACE_OUTER_BOUND ( 'NONE', #254, .T. ) ;
#283 = ORIENTED_EDGE ( 'NONE', *, *, #335, .T. ) ;
#284 = STYLED_ITEM ( 'NONE', ( #344 ), #53 ) ;
#285 = DIRECTION ( 'NONE',  ( -0.0000000000000000000, -0.0000000000000000000, -1.000000000000000000 ) ) ;
#286 = MECHANICAL_DESIGN_GEOMETRIC_PRESENTATION_REPRESENTATION (  '', ( #198 ), #227 ) ;
#287 = PRODUCT ( '104Èí¹Ü³ÄÌ×T1-4', '104Èí¹Ü³ÄÌ×T1-4', '', ( #125 ) ) ;
#288 =( GEOMETRIC_REPRESENTATION_CONTEXT ( 3 ) GLOBAL_UNCERTAINTY_ASSIGNED_CONTEXT ( ( #319 ) ) GLOBAL_UNIT_ASSIGNED_CONTEXT ( ( #376, #4, #217 ) ) REPRESENTATION_CONTEXT ( 'NONE', 'WORKASPACE' ) );
#289 = FACE_OUTER_BOUND ( 'NONE', #230, .T. ) ;
#290 = EDGE_LOOP ( 'NONE', ( #168 ) ) ;
#291 = AXIS2_PLACEMENT_3D ( 'NONE', #47, #264, #170 ) ;
#292 = FILL_AREA_STYLE ('',( #99 ) ) ;
#293 = CARTESIAN_POINT ( 'NONE',  ( 0.0000000000000000000, 0.0000000000000000000, 10.00000000000000000 ) ) ;
#294 = UNCERTAINTY_MEASURE_WITH_UNIT (LENGTH_MEASURE( 1.000000000000000100E-005 ), #338, 'distance_accuracy_value', 'NONE');
#295 =( NAMED_UNIT ( * ) SI_UNIT ( $, .STERADIAN. ) SOLID_ANGLE_UNIT ( ) );
#296 = EDGE_CURVE ( 'NONE', #44, #44, #228, .T. ) ;
#297 =( LENGTH_UNIT ( ) NAMED_UNIT ( * ) SI_UNIT ( .MILLI., .METRE. ) );
#298 = COLOUR_RGB ( '',0.7529411764705882200, 0.7529411764705882200, 0.0000000000000000000 ) ;
#299 = STYLED_ITEM ( 'NONE', ( #304 ), #123 ) ;
#300 = SURFACE_STYLE_USAGE ( .BOTH. , #301 ) ;
#301 = SURFACE_SIDE_STYLE ('',( #5 ) ) ;
#302 = PLANE ( 'NONE',  #291 ) ;
#303 = PRESENTATION_STYLE_ASSIGNMENT (( #143 ) ) ;
#304 = PRESENTATION_STYLE_ASSIGNMENT (( #166 ) ) ;
#305 = DIRECTION ( 'NONE',  ( -1.000000000000000000, 0.0000000000000000000, 0.0000000000000000000 ) ) ;
#306 = CARTESIAN_POINT ( 'NONE',  ( 0.0000000000000000000, 0.0000000000000000000, 0.2500000000000000000 ) ) ;
#307 = PRESENTATION_LAYER_ASSIGNMENT (  '', '', ( #284 ) ) ;
#308 = DIRECTION ( 'NONE',  ( -0.0000000000000000000, -0.0000000000000000000, 1.000000000000000000 ) ) ;
#309 = DIRECTION ( 'NONE',  ( -1.000000000000000000, 0.0000000000000000000, 0.0000000000000000000 ) ) ;
#310 = ORIENTED_EDGE ( 'NONE', *, *, #29, .T. ) ;
#311 = CARTESIAN_POINT ( 'NONE',  ( -1.899999999999999700, 0.0000000000000000000, 0.2500000000000000000 ) ) ;
#312 =( LENGTH_UNIT ( ) NAMED_UNIT ( * ) SI_UNIT ( .MILLI., .METRE. ) );
#313 = MECHANICAL_DESIGN_GEOMETRIC_PRESENTATION_REPRESENTATION (  '', ( #397 ), #94 ) ;
#314 = COLOUR_RGB ( '',0.7529411764705882200, 0.7529411764705882200, 0.0000000000000000000 ) ;
#315 = PRESENTATION_LAYER_ASSIGNMENT (  '', '', ( #299 ) ) ;
#316 = SURFACE_SIDE_STYLE ('',( #130 ) ) ;
#317 = EDGE_CURVE ( 'NONE', #339, #339, #148, .T. ) ;
#318 =( GEOMETRIC_REPRESENTATION_CONTEXT ( 3 ) GLOBAL_UNCERTAINTY_ASSIGNED_CONTEXT ( ( #77 ) ) GLOBAL_UNIT_ASSIGNED_CONTEXT ( ( #297, #38, #108 ) ) REPRESENTATION_CONTEXT ( 'NONE', 'WORKASPACE' ) );
#319 = UNCERTAINTY_MEASURE_WITH_UNIT (LENGTH_MEASURE( 1.000000000000000100E-005 ), #376, 'distance_accuracy_value', 'NONE');
#320 = STYLED_ITEM ( 'NONE', ( #216 ), #9 ) ;
#321 = SURFACE_SIDE_STYLE ('',( #211 ) ) ;
#322 = SURFACE_STYLE_FILL_AREA ( #83 ) ;
#323 = FILL_AREA_STYLE_COLOUR ( '', #223 ) ;
#324 = DIRECTION ( 'NONE',  ( -1.000000000000000000, 0.0000000000000000000, 0.0000000000000000000 ) ) ;
#325 = STYLED_ITEM ( 'NONE', ( #303 ), #214 ) ;
#326 = ORIENTED_EDGE ( 'NONE', *, *, #296, .F. ) ;
#327 = CARTESIAN_POINT ( 'NONE',  ( 0.0000000000000000000, 0.0000000000000000000, 0.0000000000000000000 ) ) ;
#328 =( NAMED_UNIT ( * ) PLANE_ANGLE_UNIT ( ) SI_UNIT ( $, .RADIAN. ) );
#329 = SURFACE_STYLE_USAGE ( .BOTH. , #45 ) ;
#330 = PRESENTATION_STYLE_ASSIGNMENT (( #329 ) ) ;
#331 = AXIS2_PLACEMENT_3D ( 'NONE', #61, #401, #84 ) ;
#332 = CARTESIAN_POINT ( 'NONE',  ( 0.0000000000000000000, 0.0000000000000000000, 9.549999999999998900 ) ) ;
#333 = FILL_AREA_STYLE ('',( #354 ) ) ;
#334 = SURFACE_SIDE_STYLE ('',( #39 ) ) ;
#335 = EDGE_CURVE ( 'NONE', #185, #185, #239, .T. ) ;
#336 = SURFACE_STYLE_FILL_AREA ( #37 ) ;
#337 = PRESENTATION_LAYER_ASSIGNMENT (  '', '', ( #66 ) ) ;
#338 =( LENGTH_UNIT ( ) NAMED_UNIT ( * ) SI_UNIT ( .MILLI., .METRE. ) );
#339 = VERTEX_POINT ( 'NONE', #118 ) ;
#340 = DIRECTION ( 'NONE',  ( 1.000000000000000000, 0.0000000000000000000, 0.0000000000000000000 ) ) ;
#341 = EDGE_LOOP ( 'NONE', ( #270 ) ) ;
#342 = VERTEX_POINT ( 'NONE', #403 ) ;
#343 = PRESENTATION_STYLE_ASSIGNMENT (( #300 ) ) ;
#344 = PRESENTATION_STYLE_ASSIGNMENT (( #256 ) ) ;
#345 = EDGE_LOOP ( 'NONE', ( #326 ) ) ;
#346 =( GEOMETRIC_REPRESENTATION_CONTEXT ( 3 ) GLOBAL_UNCERTAINTY_ASSIGNED_CONTEXT ( ( #87 ) ) GLOBAL_UNIT_ASSIGNED_CONTEXT ( ( #74, #349, #72 ) ) REPRESENTATION_CONTEXT ( 'NONE', 'WORKASPACE' ) );
#347 = STYLED_ITEM ( 'NONE', ( #71 ), #48 ) ;
#348 = AXIS2_PLACEMENT_3D ( 'NONE', #204, #236, #361 ) ;
#349 =( NAMED_UNIT ( * ) PLANE_ANGLE_UNIT ( ) SI_UNIT ( $, .RADIAN. ) );
#350 =( NAMED_UNIT ( * ) PLANE_ANGLE_UNIT ( ) SI_UNIT ( $, .RADIAN. ) );
#351 = MECHANICAL_DESIGN_GEOMETRIC_PRESENTATION_REPRESENTATION (  '', ( #325 ), #404 ) ;
#352 = SURFACE_STYLE_USAGE ( .BOTH. , #7 ) ;
#353 = FILL_AREA_STYLE ('',( #222 ) ) ;
#354 = FILL_AREA_STYLE_COLOUR ( '', #22 ) ;
#355 = DIRECTION ( 'NONE',  ( 1.000000000000000000, 0.0000000000000000000, 0.0000000000000000000 ) ) ;
#356 =( GEOMETRIC_REPRESENTATION_CONTEXT ( 3 ) GLOBAL_UNCERTAINTY_ASSIGNED_CONTEXT ( ( #33 ) ) GLOBAL_UNIT_ASSIGNED_CONTEXT ( ( #386, #385, #295 ) ) REPRESENTATION_CONTEXT ( 'NONE', 'WORKASPACE' ) );
#357 = SURFACE_STYLE_FILL_AREA ( #280 ) ;
#358 =( LENGTH_UNIT ( ) NAMED_UNIT ( * ) SI_UNIT ( .MILLI., .METRE. ) );
#359 = CYLINDRICAL_SURFACE ( 'NONE', #73, 0.9749999999999999800 ) ;
#360 = ORIENTED_EDGE ( 'NONE', *, *, #335, .F. ) ;
#361 = DIRECTION ( 'NONE',  ( -1.000000000000000000, 0.0000000000000000000, 0.0000000000000000000 ) ) ;
#362 = PRODUCT_DEFINITION_FORMATION_WITH_SPECIFIED_SOURCE ( 'ÈÎºÎ', '', #287, .NOT_KNOWN. ) ;
#363 = APPLICATION_PROTOCOL_DEFINITION ( 'draft international standard', 'automotive_design', 1998, #146 ) ;
#364 = AXIS2_PLACEMENT_3D ( 'NONE', #244, #137, #195 ) ;
#365 = UNCERTAINTY_MEASURE_WITH_UNIT (LENGTH_MEASURE( 1.000000000000000100E-005 ), #103, 'distance_accuracy_value', 'NONE');
#366 = DIRECTION ( 'NONE',  ( -0.0000000000000000000, -0.0000000000000000000, -1.000000000000000000 ) ) ;
#367 = CARTESIAN_POINT ( 'NONE',  ( -1.450000000000001300, 0.0000000000000000000, 0.2500000000000000000 ) ) ;
#368 = EDGE_CURVE ( 'NONE', #121, #121, #57, .T. ) ;
#369 = FACE_BOUND ( 'NONE', #219, .T. ) ;
#370 = ORIENTED_EDGE ( 'NONE', *, *, #218, .T. ) ;
#371 = CARTESIAN_POINT ( 'NONE',  ( -1.000000000000001100, 0.0000000000000000000, 9.549999999999998900 ) ) ;
#372 = APPLICATION_PROTOCOL_DEFINITION ( 'draft international standard', 'automotive_design', 1998, #90 ) ;
#373 = CYLINDRICAL_SURFACE ( 'NONE', #271, 1.250000000000001100 ) ;
#374 = MECHANICAL_DESIGN_GEOMETRIC_PRESENTATION_REPRESENTATION (  '', ( #186 ), #346 ) ;
#375 = CLOSED_SHELL ( 'NONE', ( #150, #119, #214, #245, #279, #179, #89, #48, #53, #123 ) ) ;
#376 =( LENGTH_UNIT ( ) NAMED_UNIT ( * ) SI_UNIT ( .MILLI., .METRE. ) );
#377 = CARTESIAN_POINT ( 'NONE',  ( 0.0000000000000000000, 0.0000000000000000000, 0.4500000000000007300 ) ) ;
#378 = FACE_OUTER_BOUND ( 'NONE', #345, .T. ) ;
#379 = FACE_OUTER_BOUND ( 'NONE', #290, .T. ) ;
#380 = EDGE_LOOP ( 'NONE', ( #390 ) ) ;
#381 = STYLED_ITEM ( 'NONE', ( #180 ), #89 ) ;
#382 =( GEOMETRIC_REPRESENTATION_CONTEXT ( 3 ) GLOBAL_UNCERTAINTY_ASSIGNED_CONTEXT ( ( #136 ) ) GLOBAL_UNIT_ASSIGNED_CONTEXT ( ( #69, #350, #106 ) ) REPRESENTATION_CONTEXT ( 'NONE', 'WORKASPACE' ) );
#383 =( NAMED_UNIT ( * ) SI_UNIT ( $, .STERADIAN. ) SOLID_ANGLE_UNIT ( ) );
#384 = FACE_OUTER_BOUND ( 'NONE', #17, .T. ) ;
#385 =( NAMED_UNIT ( * ) PLANE_ANGLE_UNIT ( ) SI_UNIT ( $, .RADIAN. ) );
#386 =( LENGTH_UNIT ( ) NAMED_UNIT ( * ) SI_UNIT ( .MILLI., .METRE. ) );
#387 = MECHANICAL_DESIGN_GEOMETRIC_PRESENTATION_REPRESENTATION (  '', ( #284 ), #356 ) ;
#388 = FILL_AREA_STYLE ('',( #167 ) ) ;
#389 = FACE_OUTER_BOUND ( 'NONE', #68, .T. ) ;
#390 = ORIENTED_EDGE ( 'NONE', *, *, #226, .T. ) ;
#391 = DIRECTION ( 'NONE',  ( 0.0000000000000000000, 0.0000000000000000000, 1.000000000000000000 ) ) ;
#392 = PRESENTATION_LAYER_ASSIGNMENT (  '', '', ( #347 ) ) ;
#393 = DIRECTION ( 'NONE',  ( -1.000000000000000000, 0.0000000000000000000, 0.0000000000000000000 ) ) ;
#394 = CYLINDRICAL_SURFACE ( 'NONE', #364, 1.000000000000001100 ) ;
#395 = UNCERTAINTY_MEASURE_WITH_UNIT (LENGTH_MEASURE( 1.000000000000000100E-005 ), #312, 'distance_accuracy_value', 'NONE');
#396 =( NAMED_UNIT ( * ) SI_UNIT ( $, .STERADIAN. ) SOLID_ANGLE_UNIT ( ) );
#397 = STYLED_ITEM ( 'NONE', ( #268 ), #245 ) ;
#398 = CARTESIAN_POINT ( 'NONE',  ( -1.450000000000001300, 0.0000000000000000000, 7.589415207398531000E-016 ) ) ;
#399 = FILL_AREA_STYLE ('',( #272 ) ) ;
#400 = VERTEX_POINT ( 'NONE', #398 ) ;
#401 = DIRECTION ( 'NONE',  ( 0.0000000000000000000, 0.0000000000000000000, -1.000000000000000000 ) ) ;
#402 = EDGE_LOOP ( 'NONE', ( #360 ) ) ;
#403 = CARTESIAN_POINT ( 'NONE',  ( 1.250000000000001100, 0.0000000000000000000, 9.549999999999998900 ) ) ;
#404 =( GEOMETRIC_REPRESENTATION_CONTEXT ( 3 ) GLOBAL_UNCERTAINTY_ASSIGNED_CONTEXT ( ( #97 ) ) GLOBAL_UNIT_ASSIGNED_CONTEXT ( ( #113, #200, #110 ) ) REPRESENTATION_CONTEXT ( 'NONE', 'WORKASPACE' ) );
ENDSEC;
END-ISO-10303-21;
